ISO-10303-21;
HEADER;
FILE_DESCRIPTION(('FreeCAD Model'),'2;1');
FILE_NAME(
'D:/KiCAD/packages3D-source/Package_TO_SOT_THT.3dshapes\\
Heraeus_TO-92-2.step','2017-11-28T22:15:36',('kicad StepUp'),('ksu MCAD'
    ),'Open CASCADE STEP processor 6.8','FreeCAD','Unknown');
FILE_SCHEMA(('AUTOMOTIVE_DESIGN_CC2 { 1 2 10303 214 -1 1 5 4 }'));
ENDSEC;
DATA;
#1 = APPLICATION_PROTOCOL_DEFINITION('committee draft',
  'automotive_design',1997,#2);
#2 = APPLICATION_CONTEXT(
  'core data for automotive mechanical design processes');
#3 = SHAPE_DEFINITION_REPRESENTATION(#4,#10);
#4 = PRODUCT_DEFINITION_SHAPE('','',#5);
#5 = PRODUCT_DEFINITION('design','',#6,#9);
#6 = PRODUCT_DEFINITION_FORMATION('','',#7);
#7 = PRODUCT('Heraeus_TO-92-2','Heraeus_TO-92-2','',(#8));
#8 = MECHANICAL_CONTEXT('',#2,'mechanical');
#9 = PRODUCT_DEFINITION_CONTEXT('part definition',#2,'design');
#10 = ADVANCED_BREP_SHAPE_REPRESENTATION('',(#11,#15),#519);
#11 = AXIS2_PLACEMENT_3D('',#12,#13,#14);
#12 = CARTESIAN_POINT('',(0.E+000,0.E+000,0.E+000));
#13 = DIRECTION('',(0.E+000,0.E+000,1.));
#14 = DIRECTION('',(1.,0.E+000,-0.E+000));
#15 = MANIFOLD_SOLID_BREP('',#16);
#16 = CLOSED_SHELL('',(#17,#59,#90,#121,#223,#257,#274,#291,#303,#334,
    #358,#382,#399,#430,#454,#478,#495,#507));
#17 = ADVANCED_FACE('',(#18),#54,.T.);
#18 = FACE_BOUND('',#19,.F.);
#19 = EDGE_LOOP('',(#20,#30,#39,#47));
#20 = ORIENTED_EDGE('',*,*,#21,.T.);
#21 = EDGE_CURVE('',#22,#24,#26,.T.);
#22 = VERTEX_POINT('',#23);
#23 = CARTESIAN_POINT('',(-0.38,1.6,2.5));
#24 = VERTEX_POINT('',#25);
#25 = CARTESIAN_POINT('',(-0.38,1.6,6.7));
#26 = LINE('',#27,#28);
#27 = CARTESIAN_POINT('',(-0.38,1.6,2.5));
#28 = VECTOR('',#29,1.);
#29 = DIRECTION('',(0.E+000,0.E+000,1.));
#30 = ORIENTED_EDGE('',*,*,#31,.T.);
#31 = EDGE_CURVE('',#24,#32,#34,.T.);
#32 = VERTEX_POINT('',#33);
#33 = CARTESIAN_POINT('',(-0.78,1.2,6.7));
#34 = CIRCLE('',#35,0.4);
#35 = AXIS2_PLACEMENT_3D('',#36,#37,#38);
#36 = CARTESIAN_POINT('',(-0.38,1.2,6.7));
#37 = DIRECTION('',(0.E+000,0.E+000,1.));
#38 = DIRECTION('',(1.,0.E+000,0.E+000));
#39 = ORIENTED_EDGE('',*,*,#40,.F.);
#40 = EDGE_CURVE('',#41,#32,#43,.T.);
#41 = VERTEX_POINT('',#42);
#42 = CARTESIAN_POINT('',(-0.78,1.2,2.5));
#43 = LINE('',#44,#45);
#44 = CARTESIAN_POINT('',(-0.78,1.2,2.5));
#45 = VECTOR('',#46,1.);
#46 = DIRECTION('',(0.E+000,0.E+000,1.));
#47 = ORIENTED_EDGE('',*,*,#48,.F.);
#48 = EDGE_CURVE('',#22,#41,#49,.T.);
#49 = CIRCLE('',#50,0.4);
#50 = AXIS2_PLACEMENT_3D('',#51,#52,#53);
#51 = CARTESIAN_POINT('',(-0.38,1.2,2.5));
#52 = DIRECTION('',(0.E+000,0.E+000,1.));
#53 = DIRECTION('',(1.,0.E+000,0.E+000));
#54 = CYLINDRICAL_SURFACE('',#55,0.4);
#55 = AXIS2_PLACEMENT_3D('',#56,#57,#58);
#56 = CARTESIAN_POINT('',(-0.38,1.2,2.5));
#57 = DIRECTION('',(-0.E+000,-0.E+000,-1.));
#58 = DIRECTION('',(1.,0.E+000,0.E+000));
#59 = ADVANCED_FACE('',(#60),#85,.T.);
#60 = FACE_BOUND('',#61,.T.);
#61 = EDGE_LOOP('',(#62,#63,#71,#79));
#62 = ORIENTED_EDGE('',*,*,#21,.T.);
#63 = ORIENTED_EDGE('',*,*,#64,.T.);
#64 = EDGE_CURVE('',#24,#65,#67,.T.);
#65 = VERTEX_POINT('',#66);
#66 = CARTESIAN_POINT('',(2.92,1.6,6.7));
#67 = LINE('',#68,#69);
#68 = CARTESIAN_POINT('',(-0.38,1.6,6.7));
#69 = VECTOR('',#70,1.);
#70 = DIRECTION('',(1.,0.E+000,0.E+000));
#71 = ORIENTED_EDGE('',*,*,#72,.F.);
#72 = EDGE_CURVE('',#73,#65,#75,.T.);
#73 = VERTEX_POINT('',#74);
#74 = CARTESIAN_POINT('',(2.92,1.6,2.5));
#75 = LINE('',#76,#77);
#76 = CARTESIAN_POINT('',(2.92,1.6,2.5));
#77 = VECTOR('',#78,1.);
#78 = DIRECTION('',(0.E+000,0.E+000,1.));
#79 = ORIENTED_EDGE('',*,*,#80,.F.);
#80 = EDGE_CURVE('',#22,#73,#81,.T.);
#81 = LINE('',#82,#83);
#82 = CARTESIAN_POINT('',(-0.38,1.6,2.5));
#83 = VECTOR('',#84,1.);
#84 = DIRECTION('',(1.,0.E+000,0.E+000));
#85 = PLANE('',#86);
#86 = AXIS2_PLACEMENT_3D('',#87,#88,#89);
#87 = CARTESIAN_POINT('',(-0.38,1.6,2.5));
#88 = DIRECTION('',(0.E+000,1.,0.E+000));
#89 = DIRECTION('',(1.,0.E+000,0.E+000));
#90 = ADVANCED_FACE('',(#91),#116,.T.);
#91 = FACE_BOUND('',#92,.T.);
#92 = EDGE_LOOP('',(#93,#103,#109,#110));
#93 = ORIENTED_EDGE('',*,*,#94,.T.);
#94 = EDGE_CURVE('',#95,#97,#99,.T.);
#95 = VERTEX_POINT('',#96);
#96 = CARTESIAN_POINT('',(-0.78,-1.,2.5));
#97 = VERTEX_POINT('',#98);
#98 = CARTESIAN_POINT('',(-0.78,-1.,6.7));
#99 = LINE('',#100,#101);
#100 = CARTESIAN_POINT('',(-0.78,-1.,2.5));
#101 = VECTOR('',#102,1.);
#102 = DIRECTION('',(0.E+000,0.E+000,1.));
#103 = ORIENTED_EDGE('',*,*,#104,.T.);
#104 = EDGE_CURVE('',#97,#32,#105,.T.);
#105 = LINE('',#106,#107);
#106 = CARTESIAN_POINT('',(-0.78,-1.,6.7));
#107 = VECTOR('',#108,1.);
#108 = DIRECTION('',(0.E+000,1.,0.E+000));
#109 = ORIENTED_EDGE('',*,*,#40,.F.);
#110 = ORIENTED_EDGE('',*,*,#111,.F.);
#111 = EDGE_CURVE('',#95,#41,#112,.T.);
#112 = LINE('',#113,#114);
#113 = CARTESIAN_POINT('',(-0.78,-1.,2.5));
#114 = VECTOR('',#115,1.);
#115 = DIRECTION('',(0.E+000,1.,0.E+000));
#116 = PLANE('',#117);
#117 = AXIS2_PLACEMENT_3D('',#118,#119,#120);
#118 = CARTESIAN_POINT('',(-0.78,-1.,2.5));
#119 = DIRECTION('',(-1.,0.E+000,0.E+000));
#120 = DIRECTION('',(0.E+000,1.,0.E+000));
#121 = ADVANCED_FACE('',(#122,#150,#184),#218,.T.);
#122 = FACE_BOUND('',#123,.T.);
#123 = EDGE_LOOP('',(#124,#125,#126,#135,#143,#149));
#124 = ORIENTED_EDGE('',*,*,#48,.F.);
#125 = ORIENTED_EDGE('',*,*,#80,.T.);
#126 = ORIENTED_EDGE('',*,*,#127,.F.);
#127 = EDGE_CURVE('',#128,#73,#130,.T.);
#128 = VERTEX_POINT('',#129);
#129 = CARTESIAN_POINT('',(3.32,1.2,2.5));
#130 = CIRCLE('',#131,0.4);
#131 = AXIS2_PLACEMENT_3D('',#132,#133,#134);
#132 = CARTESIAN_POINT('',(2.92,1.2,2.5));
#133 = DIRECTION('',(0.E+000,0.E+000,1.));
#134 = DIRECTION('',(1.,0.E+000,0.E+000));
#135 = ORIENTED_EDGE('',*,*,#136,.F.);
#136 = EDGE_CURVE('',#137,#128,#139,.T.);
#137 = VERTEX_POINT('',#138);
#138 = CARTESIAN_POINT('',(3.32,-1.,2.5));
#139 = LINE('',#140,#141);
#140 = CARTESIAN_POINT('',(3.32,-1.,2.5));
#141 = VECTOR('',#142,1.);
#142 = DIRECTION('',(0.E+000,1.,0.E+000));
#143 = ORIENTED_EDGE('',*,*,#144,.F.);
#144 = EDGE_CURVE('',#95,#137,#145,.T.);
#145 = LINE('',#146,#147);
#146 = CARTESIAN_POINT('',(-0.78,-1.,2.5));
#147 = VECTOR('',#148,1.);
#148 = DIRECTION('',(1.,0.E+000,0.E+000));
#149 = ORIENTED_EDGE('',*,*,#111,.T.);
#150 = FACE_BOUND('',#151,.T.);
#151 = EDGE_LOOP('',(#152,#162,#170,#178));
#152 = ORIENTED_EDGE('',*,*,#153,.F.);
#153 = EDGE_CURVE('',#154,#156,#158,.T.);
#154 = VERTEX_POINT('',#155);
#155 = CARTESIAN_POINT('',(-0.24,0.19,2.5));
#156 = VERTEX_POINT('',#157);
#157 = CARTESIAN_POINT('',(0.24,0.19,2.5));
#158 = LINE('',#159,#160);
#159 = CARTESIAN_POINT('',(-0.24,0.19,2.5));
#160 = VECTOR('',#161,1.);
#161 = DIRECTION('',(1.,0.E+000,0.E+000));
#162 = ORIENTED_EDGE('',*,*,#163,.F.);
#163 = EDGE_CURVE('',#164,#154,#166,.T.);
#164 = VERTEX_POINT('',#165);
#165 = CARTESIAN_POINT('',(-0.24,-0.19,2.5));
#166 = LINE('',#167,#168);
#167 = CARTESIAN_POINT('',(-0.24,-0.19,2.5));
#168 = VECTOR('',#169,1.);
#169 = DIRECTION('',(0.E+000,1.,0.E+000));
#170 = ORIENTED_EDGE('',*,*,#171,.F.);
#171 = EDGE_CURVE('',#172,#164,#174,.T.);
#172 = VERTEX_POINT('',#173);
#173 = CARTESIAN_POINT('',(0.24,-0.19,2.5));
#174 = LINE('',#175,#176);
#175 = CARTESIAN_POINT('',(0.24,-0.19,2.5));
#176 = VECTOR('',#177,1.);
#177 = DIRECTION('',(-1.,0.E+000,0.E+000));
#178 = ORIENTED_EDGE('',*,*,#179,.F.);
#179 = EDGE_CURVE('',#156,#172,#180,.T.);
#180 = LINE('',#181,#182);
#181 = CARTESIAN_POINT('',(0.24,0.19,2.5));
#182 = VECTOR('',#183,1.);
#183 = DIRECTION('',(0.E+000,-1.,0.E+000));
#184 = FACE_BOUND('',#185,.T.);
#185 = EDGE_LOOP('',(#186,#196,#204,#212));
#186 = ORIENTED_EDGE('',*,*,#187,.F.);
#187 = EDGE_CURVE('',#188,#190,#192,.T.);
#188 = VERTEX_POINT('',#189);
#189 = CARTESIAN_POINT('',(2.3,0.19,2.5));
#190 = VERTEX_POINT('',#191);
#191 = CARTESIAN_POINT('',(2.78,0.19,2.5));
#192 = LINE('',#193,#194);
#193 = CARTESIAN_POINT('',(2.3,0.19,2.5));
#194 = VECTOR('',#195,1.);
#195 = DIRECTION('',(1.,0.E+000,0.E+000));
#196 = ORIENTED_EDGE('',*,*,#197,.F.);
#197 = EDGE_CURVE('',#198,#188,#200,.T.);
#198 = VERTEX_POINT('',#199);
#199 = CARTESIAN_POINT('',(2.3,-0.19,2.5));
#200 = LINE('',#201,#202);
#201 = CARTESIAN_POINT('',(2.3,-0.19,2.5));
#202 = VECTOR('',#203,1.);
#203 = DIRECTION('',(0.E+000,1.,0.E+000));
#204 = ORIENTED_EDGE('',*,*,#205,.F.);
#205 = EDGE_CURVE('',#206,#198,#208,.T.);
#206 = VERTEX_POINT('',#207);
#207 = CARTESIAN_POINT('',(2.78,-0.19,2.5));
#208 = LINE('',#209,#210);
#209 = CARTESIAN_POINT('',(2.78,-0.19,2.5));
#210 = VECTOR('',#211,1.);
#211 = DIRECTION('',(-1.,0.E+000,0.E+000));
#212 = ORIENTED_EDGE('',*,*,#213,.F.);
#213 = EDGE_CURVE('',#190,#206,#214,.T.);
#214 = LINE('',#215,#216);
#215 = CARTESIAN_POINT('',(2.78,0.19,2.5));
#216 = VECTOR('',#217,1.);
#217 = DIRECTION('',(0.E+000,-1.,0.E+000));
#218 = PLANE('',#219);
#219 = AXIS2_PLACEMENT_3D('',#220,#221,#222);
#220 = CARTESIAN_POINT('',(-0.38,1.6,2.5));
#221 = DIRECTION('',(0.E+000,0.E+000,-1.));
#222 = DIRECTION('',(-1.,0.E+000,0.E+000));
#223 = ADVANCED_FACE('',(#224),#252,.F.);
#224 = FACE_BOUND('',#225,.T.);
#225 = EDGE_LOOP('',(#226,#227,#228,#236,#244,#251));
#226 = ORIENTED_EDGE('',*,*,#31,.T.);
#227 = ORIENTED_EDGE('',*,*,#104,.F.);
#228 = ORIENTED_EDGE('',*,*,#229,.T.);
#229 = EDGE_CURVE('',#97,#230,#232,.T.);
#230 = VERTEX_POINT('',#231);
#231 = CARTESIAN_POINT('',(3.32,-1.,6.7));
#232 = LINE('',#233,#234);
#233 = CARTESIAN_POINT('',(-0.78,-1.,6.7));
#234 = VECTOR('',#235,1.);
#235 = DIRECTION('',(1.,0.E+000,0.E+000));
#236 = ORIENTED_EDGE('',*,*,#237,.T.);
#237 = EDGE_CURVE('',#230,#238,#240,.T.);
#238 = VERTEX_POINT('',#239);
#239 = CARTESIAN_POINT('',(3.32,1.2,6.7));
#240 = LINE('',#241,#242);
#241 = CARTESIAN_POINT('',(3.32,-1.,6.7));
#242 = VECTOR('',#243,1.);
#243 = DIRECTION('',(0.E+000,1.,0.E+000));
#244 = ORIENTED_EDGE('',*,*,#245,.T.);
#245 = EDGE_CURVE('',#238,#65,#246,.T.);
#246 = CIRCLE('',#247,0.4);
#247 = AXIS2_PLACEMENT_3D('',#248,#249,#250);
#248 = CARTESIAN_POINT('',(2.92,1.2,6.7));
#249 = DIRECTION('',(0.E+000,0.E+000,1.));
#250 = DIRECTION('',(1.,0.E+000,0.E+000));
#251 = ORIENTED_EDGE('',*,*,#64,.F.);
#252 = PLANE('',#253);
#253 = AXIS2_PLACEMENT_3D('',#254,#255,#256);
#254 = CARTESIAN_POINT('',(-0.38,1.6,6.7));
#255 = DIRECTION('',(0.E+000,0.E+000,-1.));
#256 = DIRECTION('',(-1.,0.E+000,0.E+000));
#257 = ADVANCED_FACE('',(#258),#269,.T.);
#258 = FACE_BOUND('',#259,.F.);
#259 = EDGE_LOOP('',(#260,#266,#267,#268));
#260 = ORIENTED_EDGE('',*,*,#261,.T.);
#261 = EDGE_CURVE('',#128,#238,#262,.T.);
#262 = LINE('',#263,#264);
#263 = CARTESIAN_POINT('',(3.32,1.2,2.5));
#264 = VECTOR('',#265,1.);
#265 = DIRECTION('',(0.E+000,0.E+000,1.));
#266 = ORIENTED_EDGE('',*,*,#245,.T.);
#267 = ORIENTED_EDGE('',*,*,#72,.F.);
#268 = ORIENTED_EDGE('',*,*,#127,.F.);
#269 = CYLINDRICAL_SURFACE('',#270,0.4);
#270 = AXIS2_PLACEMENT_3D('',#271,#272,#273);
#271 = CARTESIAN_POINT('',(2.92,1.2,2.5));
#272 = DIRECTION('',(-0.E+000,-0.E+000,-1.));
#273 = DIRECTION('',(1.,0.E+000,0.E+000));
#274 = ADVANCED_FACE('',(#275),#286,.F.);
#275 = FACE_BOUND('',#276,.F.);
#276 = EDGE_LOOP('',(#277,#278,#279,#285));
#277 = ORIENTED_EDGE('',*,*,#94,.T.);
#278 = ORIENTED_EDGE('',*,*,#229,.T.);
#279 = ORIENTED_EDGE('',*,*,#280,.F.);
#280 = EDGE_CURVE('',#137,#230,#281,.T.);
#281 = LINE('',#282,#283);
#282 = CARTESIAN_POINT('',(3.32,-1.,2.5));
#283 = VECTOR('',#284,1.);
#284 = DIRECTION('',(0.E+000,0.E+000,1.));
#285 = ORIENTED_EDGE('',*,*,#144,.F.);
#286 = PLANE('',#287);
#287 = AXIS2_PLACEMENT_3D('',#288,#289,#290);
#288 = CARTESIAN_POINT('',(-0.78,-1.,2.5));
#289 = DIRECTION('',(0.E+000,1.,0.E+000));
#290 = DIRECTION('',(1.,0.E+000,0.E+000));
#291 = ADVANCED_FACE('',(#292),#298,.F.);
#292 = FACE_BOUND('',#293,.F.);
#293 = EDGE_LOOP('',(#294,#295,#296,#297));
#294 = ORIENTED_EDGE('',*,*,#280,.T.);
#295 = ORIENTED_EDGE('',*,*,#237,.T.);
#296 = ORIENTED_EDGE('',*,*,#261,.F.);
#297 = ORIENTED_EDGE('',*,*,#136,.F.);
#298 = PLANE('',#299);
#299 = AXIS2_PLACEMENT_3D('',#300,#301,#302);
#300 = CARTESIAN_POINT('',(3.32,-1.,2.5));
#301 = DIRECTION('',(-1.,0.E+000,0.E+000));
#302 = DIRECTION('',(0.E+000,1.,0.E+000));
#303 = ADVANCED_FACE('',(#304),#329,.F.);
#304 = FACE_BOUND('',#305,.F.);
#305 = EDGE_LOOP('',(#306,#314,#322,#328));
#306 = ORIENTED_EDGE('',*,*,#307,.T.);
#307 = EDGE_CURVE('',#154,#308,#310,.T.);
#308 = VERTEX_POINT('',#309);
#309 = CARTESIAN_POINT('',(-0.24,0.19,-2.5));
#310 = LINE('',#311,#312);
#311 = CARTESIAN_POINT('',(-0.24,0.19,2.5));
#312 = VECTOR('',#313,1.);
#313 = DIRECTION('',(-0.E+000,-0.E+000,-1.));
#314 = ORIENTED_EDGE('',*,*,#315,.T.);
#315 = EDGE_CURVE('',#308,#316,#318,.T.);
#316 = VERTEX_POINT('',#317);
#317 = CARTESIAN_POINT('',(0.24,0.19,-2.5));
#318 = LINE('',#319,#320);
#319 = CARTESIAN_POINT('',(-0.24,0.19,-2.5));
#320 = VECTOR('',#321,1.);
#321 = DIRECTION('',(1.,0.E+000,0.E+000));
#322 = ORIENTED_EDGE('',*,*,#323,.F.);
#323 = EDGE_CURVE('',#156,#316,#324,.T.);
#324 = LINE('',#325,#326);
#325 = CARTESIAN_POINT('',(0.24,0.19,2.5));
#326 = VECTOR('',#327,1.);
#327 = DIRECTION('',(-0.E+000,-0.E+000,-1.));
#328 = ORIENTED_EDGE('',*,*,#153,.F.);
#329 = PLANE('',#330);
#330 = AXIS2_PLACEMENT_3D('',#331,#332,#333);
#331 = CARTESIAN_POINT('',(-0.24,0.19,2.5));
#332 = DIRECTION('',(0.E+000,-1.,0.E+000));
#333 = DIRECTION('',(1.,0.E+000,0.E+000));
#334 = ADVANCED_FACE('',(#335),#353,.F.);
#335 = FACE_BOUND('',#336,.F.);
#336 = EDGE_LOOP('',(#337,#338,#346,#352));
#337 = ORIENTED_EDGE('',*,*,#323,.T.);
#338 = ORIENTED_EDGE('',*,*,#339,.T.);
#339 = EDGE_CURVE('',#316,#340,#342,.T.);
#340 = VERTEX_POINT('',#341);
#341 = CARTESIAN_POINT('',(0.24,-0.19,-2.5));
#342 = LINE('',#343,#344);
#343 = CARTESIAN_POINT('',(0.24,0.19,-2.5));
#344 = VECTOR('',#345,1.);
#345 = DIRECTION('',(0.E+000,-1.,0.E+000));
#346 = ORIENTED_EDGE('',*,*,#347,.F.);
#347 = EDGE_CURVE('',#172,#340,#348,.T.);
#348 = LINE('',#349,#350);
#349 = CARTESIAN_POINT('',(0.24,-0.19,2.5));
#350 = VECTOR('',#351,1.);
#351 = DIRECTION('',(-0.E+000,-0.E+000,-1.));
#352 = ORIENTED_EDGE('',*,*,#179,.F.);
#353 = PLANE('',#354);
#354 = AXIS2_PLACEMENT_3D('',#355,#356,#357);
#355 = CARTESIAN_POINT('',(0.24,0.19,2.5));
#356 = DIRECTION('',(-1.,0.E+000,0.E+000));
#357 = DIRECTION('',(0.E+000,-1.,0.E+000));
#358 = ADVANCED_FACE('',(#359),#377,.F.);
#359 = FACE_BOUND('',#360,.F.);
#360 = EDGE_LOOP('',(#361,#362,#370,#376));
#361 = ORIENTED_EDGE('',*,*,#347,.T.);
#362 = ORIENTED_EDGE('',*,*,#363,.T.);
#363 = EDGE_CURVE('',#340,#364,#366,.T.);
#364 = VERTEX_POINT('',#365);
#365 = CARTESIAN_POINT('',(-0.24,-0.19,-2.5));
#366 = LINE('',#367,#368);
#367 = CARTESIAN_POINT('',(0.24,-0.19,-2.5));
#368 = VECTOR('',#369,1.);
#369 = DIRECTION('',(-1.,0.E+000,0.E+000));
#370 = ORIENTED_EDGE('',*,*,#371,.F.);
#371 = EDGE_CURVE('',#164,#364,#372,.T.);
#372 = LINE('',#373,#374);
#373 = CARTESIAN_POINT('',(-0.24,-0.19,2.5));
#374 = VECTOR('',#375,1.);
#375 = DIRECTION('',(-0.E+000,-0.E+000,-1.));
#376 = ORIENTED_EDGE('',*,*,#171,.F.);
#377 = PLANE('',#378);
#378 = AXIS2_PLACEMENT_3D('',#379,#380,#381);
#379 = CARTESIAN_POINT('',(0.24,-0.19,2.5));
#380 = DIRECTION('',(0.E+000,1.,0.E+000));
#381 = DIRECTION('',(-1.,0.E+000,0.E+000));
#382 = ADVANCED_FACE('',(#383),#394,.F.);
#383 = FACE_BOUND('',#384,.F.);
#384 = EDGE_LOOP('',(#385,#386,#392,#393));
#385 = ORIENTED_EDGE('',*,*,#371,.T.);
#386 = ORIENTED_EDGE('',*,*,#387,.T.);
#387 = EDGE_CURVE('',#364,#308,#388,.T.);
#388 = LINE('',#389,#390);
#389 = CARTESIAN_POINT('',(-0.24,-0.19,-2.5));
#390 = VECTOR('',#391,1.);
#391 = DIRECTION('',(0.E+000,1.,0.E+000));
#392 = ORIENTED_EDGE('',*,*,#307,.F.);
#393 = ORIENTED_EDGE('',*,*,#163,.F.);
#394 = PLANE('',#395);
#395 = AXIS2_PLACEMENT_3D('',#396,#397,#398);
#396 = CARTESIAN_POINT('',(-0.24,-0.19,2.5));
#397 = DIRECTION('',(1.,0.E+000,0.E+000));
#398 = DIRECTION('',(0.E+000,1.,0.E+000));
#399 = ADVANCED_FACE('',(#400),#425,.F.);
#400 = FACE_BOUND('',#401,.F.);
#401 = EDGE_LOOP('',(#402,#410,#418,#424));
#402 = ORIENTED_EDGE('',*,*,#403,.T.);
#403 = EDGE_CURVE('',#188,#404,#406,.T.);
#404 = VERTEX_POINT('',#405);
#405 = CARTESIAN_POINT('',(2.3,0.19,-2.5));
#406 = LINE('',#407,#408);
#407 = CARTESIAN_POINT('',(2.3,0.19,2.5));
#408 = VECTOR('',#409,1.);
#409 = DIRECTION('',(-0.E+000,-0.E+000,-1.));
#410 = ORIENTED_EDGE('',*,*,#411,.T.);
#411 = EDGE_CURVE('',#404,#412,#414,.T.);
#412 = VERTEX_POINT('',#413);
#413 = CARTESIAN_POINT('',(2.78,0.19,-2.5));
#414 = LINE('',#415,#416);
#415 = CARTESIAN_POINT('',(2.3,0.19,-2.5));
#416 = VECTOR('',#417,1.);
#417 = DIRECTION('',(1.,0.E+000,0.E+000));
#418 = ORIENTED_EDGE('',*,*,#419,.F.);
#419 = EDGE_CURVE('',#190,#412,#420,.T.);
#420 = LINE('',#421,#422);
#421 = CARTESIAN_POINT('',(2.78,0.19,2.5));
#422 = VECTOR('',#423,1.);
#423 = DIRECTION('',(-0.E+000,-0.E+000,-1.));
#424 = ORIENTED_EDGE('',*,*,#187,.F.);
#425 = PLANE('',#426);
#426 = AXIS2_PLACEMENT_3D('',#427,#428,#429);
#427 = CARTESIAN_POINT('',(2.3,0.19,2.5));
#428 = DIRECTION('',(0.E+000,-1.,0.E+000));
#429 = DIRECTION('',(1.,0.E+000,0.E+000));
#430 = ADVANCED_FACE('',(#431),#449,.F.);
#431 = FACE_BOUND('',#432,.F.);
#432 = EDGE_LOOP('',(#433,#434,#442,#448));
#433 = ORIENTED_EDGE('',*,*,#419,.T.);
#434 = ORIENTED_EDGE('',*,*,#435,.T.);
#435 = EDGE_CURVE('',#412,#436,#438,.T.);
#436 = VERTEX_POINT('',#437);
#437 = CARTESIAN_POINT('',(2.78,-0.19,-2.5));
#438 = LINE('',#439,#440);
#439 = CARTESIAN_POINT('',(2.78,0.19,-2.5));
#440 = VECTOR('',#441,1.);
#441 = DIRECTION('',(0.E+000,-1.,0.E+000));
#442 = ORIENTED_EDGE('',*,*,#443,.F.);
#443 = EDGE_CURVE('',#206,#436,#444,.T.);
#444 = LINE('',#445,#446);
#445 = CARTESIAN_POINT('',(2.78,-0.19,2.5));
#446 = VECTOR('',#447,1.);
#447 = DIRECTION('',(-0.E+000,-0.E+000,-1.));
#448 = ORIENTED_EDGE('',*,*,#213,.F.);
#449 = PLANE('',#450);
#450 = AXIS2_PLACEMENT_3D('',#451,#452,#453);
#451 = CARTESIAN_POINT('',(2.78,0.19,2.5));
#452 = DIRECTION('',(-1.,0.E+000,0.E+000));
#453 = DIRECTION('',(0.E+000,-1.,0.E+000));
#454 = ADVANCED_FACE('',(#455),#473,.F.);
#455 = FACE_BOUND('',#456,.F.);
#456 = EDGE_LOOP('',(#457,#458,#466,#472));
#457 = ORIENTED_EDGE('',*,*,#443,.T.);
#458 = ORIENTED_EDGE('',*,*,#459,.T.);
#459 = EDGE_CURVE('',#436,#460,#462,.T.);
#460 = VERTEX_POINT('',#461);
#461 = CARTESIAN_POINT('',(2.3,-0.19,-2.5));
#462 = LINE('',#463,#464);
#463 = CARTESIAN_POINT('',(2.78,-0.19,-2.5));
#464 = VECTOR('',#465,1.);
#465 = DIRECTION('',(-1.,0.E+000,0.E+000));
#466 = ORIENTED_EDGE('',*,*,#467,.F.);
#467 = EDGE_CURVE('',#198,#460,#468,.T.);
#468 = LINE('',#469,#470);
#469 = CARTESIAN_POINT('',(2.3,-0.19,2.5));
#470 = VECTOR('',#471,1.);
#471 = DIRECTION('',(-0.E+000,-0.E+000,-1.));
#472 = ORIENTED_EDGE('',*,*,#205,.F.);
#473 = PLANE('',#474);
#474 = AXIS2_PLACEMENT_3D('',#475,#476,#477);
#475 = CARTESIAN_POINT('',(2.78,-0.19,2.5));
#476 = DIRECTION('',(0.E+000,1.,0.E+000));
#477 = DIRECTION('',(-1.,0.E+000,0.E+000));
#478 = ADVANCED_FACE('',(#479),#490,.F.);
#479 = FACE_BOUND('',#480,.F.);
#480 = EDGE_LOOP('',(#481,#482,#488,#489));
#481 = ORIENTED_EDGE('',*,*,#467,.T.);
#482 = ORIENTED_EDGE('',*,*,#483,.T.);
#483 = EDGE_CURVE('',#460,#404,#484,.T.);
#484 = LINE('',#485,#486);
#485 = CARTESIAN_POINT('',(2.3,-0.19,-2.5));
#486 = VECTOR('',#487,1.);
#487 = DIRECTION('',(0.E+000,1.,0.E+000));
#488 = ORIENTED_EDGE('',*,*,#403,.F.);
#489 = ORIENTED_EDGE('',*,*,#197,.F.);
#490 = PLANE('',#491);
#491 = AXIS2_PLACEMENT_3D('',#492,#493,#494);
#492 = CARTESIAN_POINT('',(2.3,-0.19,2.5));
#493 = DIRECTION('',(1.,0.E+000,0.E+000));
#494 = DIRECTION('',(0.E+000,1.,0.E+000));
#495 = ADVANCED_FACE('',(#496),#502,.F.);
#496 = FACE_BOUND('',#497,.T.);
#497 = EDGE_LOOP('',(#498,#499,#500,#501));
#498 = ORIENTED_EDGE('',*,*,#315,.T.);
#499 = ORIENTED_EDGE('',*,*,#339,.T.);
#500 = ORIENTED_EDGE('',*,*,#363,.T.);
#501 = ORIENTED_EDGE('',*,*,#387,.T.);
#502 = PLANE('',#503);
#503 = AXIS2_PLACEMENT_3D('',#504,#505,#506);
#504 = CARTESIAN_POINT('',(-0.24,0.19,-2.5));
#505 = DIRECTION('',(0.E+000,0.E+000,1.));
#506 = DIRECTION('',(1.,0.E+000,0.E+000));
#507 = ADVANCED_FACE('',(#508),#514,.F.);
#508 = FACE_BOUND('',#509,.T.);
#509 = EDGE_LOOP('',(#510,#511,#512,#513));
#510 = ORIENTED_EDGE('',*,*,#411,.T.);
#511 = ORIENTED_EDGE('',*,*,#435,.T.);
#512 = ORIENTED_EDGE('',*,*,#459,.T.);
#513 = ORIENTED_EDGE('',*,*,#483,.T.);
#514 = PLANE('',#515);
#515 = AXIS2_PLACEMENT_3D('',#516,#517,#518);
#516 = CARTESIAN_POINT('',(2.3,0.19,-2.5));
#517 = DIRECTION('',(0.E+000,0.E+000,1.));
#518 = DIRECTION('',(1.,0.E+000,0.E+000));
#519 = ( GEOMETRIC_REPRESENTATION_CONTEXT(3) 
GLOBAL_UNCERTAINTY_ASSIGNED_CONTEXT((#523)) GLOBAL_UNIT_ASSIGNED_CONTEXT
((#520,#521,#522)) REPRESENTATION_CONTEXT('Context #1',
  '3D Context with UNIT and UNCERTAINTY') );
#520 = ( LENGTH_UNIT() NAMED_UNIT(*) SI_UNIT(.MILLI.,.METRE.) );
#521 = ( NAMED_UNIT(*) PLANE_ANGLE_UNIT() SI_UNIT($,.RADIAN.) );
#522 = ( NAMED_UNIT(*) SI_UNIT($,.STERADIAN.) SOLID_ANGLE_UNIT() );
#523 = UNCERTAINTY_MEASURE_WITH_UNIT(LENGTH_MEASURE(1.E-007),#520,
  'distance_accuracy_value','confusion accuracy');
#524 = PRODUCT_TYPE('part',$,(#7));
#525 = MECHANICAL_DESIGN_GEOMETRIC_PRESENTATION_REPRESENTATION('',(#526,
    #534,#541,#548,#555,#562,#569,#576,#583,#591,#598,#605,#612,#619,
    #626,#633,#640,#647),#519);
#526 = STYLED_ITEM('color',(#527),#17);
#527 = PRESENTATION_STYLE_ASSIGNMENT((#528));
#528 = SURFACE_STYLE_USAGE(.BOTH.,#529);
#529 = SURFACE_SIDE_STYLE('',(#530));
#530 = SURFACE_STYLE_FILL_AREA(#531);
#531 = FILL_AREA_STYLE('',(#532));
#532 = FILL_AREA_STYLE_COLOUR('',#533);
#533 = DRAUGHTING_PRE_DEFINED_COLOUR('black');
#534 = STYLED_ITEM('color',(#535),#59);
#535 = PRESENTATION_STYLE_ASSIGNMENT((#536));
#536 = SURFACE_STYLE_USAGE(.BOTH.,#537);
#537 = SURFACE_SIDE_STYLE('',(#538));
#538 = SURFACE_STYLE_FILL_AREA(#539);
#539 = FILL_AREA_STYLE('',(#540));
#540 = FILL_AREA_STYLE_COLOUR('',#533);
#541 = STYLED_ITEM('color',(#542),#90);
#542 = PRESENTATION_STYLE_ASSIGNMENT((#543));
#543 = SURFACE_STYLE_USAGE(.BOTH.,#544);
#544 = SURFACE_SIDE_STYLE('',(#545));
#545 = SURFACE_STYLE_FILL_AREA(#546);
#546 = FILL_AREA_STYLE('',(#547));
#547 = FILL_AREA_STYLE_COLOUR('',#533);
#548 = STYLED_ITEM('color',(#549),#121);
#549 = PRESENTATION_STYLE_ASSIGNMENT((#550));
#550 = SURFACE_STYLE_USAGE(.BOTH.,#551);
#551 = SURFACE_SIDE_STYLE('',(#552));
#552 = SURFACE_STYLE_FILL_AREA(#553);
#553 = FILL_AREA_STYLE('',(#554));
#554 = FILL_AREA_STYLE_COLOUR('',#533);
#555 = STYLED_ITEM('color',(#556),#223);
#556 = PRESENTATION_STYLE_ASSIGNMENT((#557));
#557 = SURFACE_STYLE_USAGE(.BOTH.,#558);
#558 = SURFACE_SIDE_STYLE('',(#559));
#559 = SURFACE_STYLE_FILL_AREA(#560);
#560 = FILL_AREA_STYLE('',(#561));
#561 = FILL_AREA_STYLE_COLOUR('',#533);
#562 = STYLED_ITEM('color',(#563),#257);
#563 = PRESENTATION_STYLE_ASSIGNMENT((#564));
#564 = SURFACE_STYLE_USAGE(.BOTH.,#565);
#565 = SURFACE_SIDE_STYLE('',(#566));
#566 = SURFACE_STYLE_FILL_AREA(#567);
#567 = FILL_AREA_STYLE('',(#568));
#568 = FILL_AREA_STYLE_COLOUR('',#533);
#569 = STYLED_ITEM('color',(#570),#274);
#570 = PRESENTATION_STYLE_ASSIGNMENT((#571));
#571 = SURFACE_STYLE_USAGE(.BOTH.,#572);
#572 = SURFACE_SIDE_STYLE('',(#573));
#573 = SURFACE_STYLE_FILL_AREA(#574);
#574 = FILL_AREA_STYLE('',(#575));
#575 = FILL_AREA_STYLE_COLOUR('',#533);
#576 = STYLED_ITEM('color',(#577),#291);
#577 = PRESENTATION_STYLE_ASSIGNMENT((#578));
#578 = SURFACE_STYLE_USAGE(.BOTH.,#579);
#579 = SURFACE_SIDE_STYLE('',(#580));
#580 = SURFACE_STYLE_FILL_AREA(#581);
#581 = FILL_AREA_STYLE('',(#582));
#582 = FILL_AREA_STYLE_COLOUR('',#533);
#583 = STYLED_ITEM('color',(#584),#303);
#584 = PRESENTATION_STYLE_ASSIGNMENT((#585));
#585 = SURFACE_STYLE_USAGE(.BOTH.,#586);
#586 = SURFACE_SIDE_STYLE('',(#587));
#587 = SURFACE_STYLE_FILL_AREA(#588);
#588 = FILL_AREA_STYLE('',(#589));
#589 = FILL_AREA_STYLE_COLOUR('',#590);
#590 = COLOUR_RGB('',0.824000000954,0.819999992847,0.78100001812);
#591 = STYLED_ITEM('color',(#592),#334);
#592 = PRESENTATION_STYLE_ASSIGNMENT((#593));
#593 = SURFACE_STYLE_USAGE(.BOTH.,#594);
#594 = SURFACE_SIDE_STYLE('',(#595));
#595 = SURFACE_STYLE_FILL_AREA(#596);
#596 = FILL_AREA_STYLE('',(#597));
#597 = FILL_AREA_STYLE_COLOUR('',#590);
#598 = STYLED_ITEM('color',(#599),#358);
#599 = PRESENTATION_STYLE_ASSIGNMENT((#600));
#600 = SURFACE_STYLE_USAGE(.BOTH.,#601);
#601 = SURFACE_SIDE_STYLE('',(#602));
#602 = SURFACE_STYLE_FILL_AREA(#603);
#603 = FILL_AREA_STYLE('',(#604));
#604 = FILL_AREA_STYLE_COLOUR('',#590);
#605 = STYLED_ITEM('color',(#606),#382);
#606 = PRESENTATION_STYLE_ASSIGNMENT((#607));
#607 = SURFACE_STYLE_USAGE(.BOTH.,#608);
#608 = SURFACE_SIDE_STYLE('',(#609));
#609 = SURFACE_STYLE_FILL_AREA(#610);
#610 = FILL_AREA_STYLE('',(#611));
#611 = FILL_AREA_STYLE_COLOUR('',#590);
#612 = STYLED_ITEM('color',(#613),#399);
#613 = PRESENTATION_STYLE_ASSIGNMENT((#614));
#614 = SURFACE_STYLE_USAGE(.BOTH.,#615);
#615 = SURFACE_SIDE_STYLE('',(#616));
#616 = SURFACE_STYLE_FILL_AREA(#617);
#617 = FILL_AREA_STYLE('',(#618));
#618 = FILL_AREA_STYLE_COLOUR('',#590);
#619 = STYLED_ITEM('color',(#620),#430);
#620 = PRESENTATION_STYLE_ASSIGNMENT((#621));
#621 = SURFACE_STYLE_USAGE(.BOTH.,#622);
#622 = SURFACE_SIDE_STYLE('',(#623));
#623 = SURFACE_STYLE_FILL_AREA(#624);
#624 = FILL_AREA_STYLE('',(#625));
#625 = FILL_AREA_STYLE_COLOUR('',#590);
#626 = STYLED_ITEM('color',(#627),#454);
#627 = PRESENTATION_STYLE_ASSIGNMENT((#628));
#628 = SURFACE_STYLE_USAGE(.BOTH.,#629);
#629 = SURFACE_SIDE_STYLE('',(#630));
#630 = SURFACE_STYLE_FILL_AREA(#631);
#631 = FILL_AREA_STYLE('',(#632));
#632 = FILL_AREA_STYLE_COLOUR('',#590);
#633 = STYLED_ITEM('color',(#634),#478);
#634 = PRESENTATION_STYLE_ASSIGNMENT((#635));
#635 = SURFACE_STYLE_USAGE(.BOTH.,#636);
#636 = SURFACE_SIDE_STYLE('',(#637));
#637 = SURFACE_STYLE_FILL_AREA(#638);
#638 = FILL_AREA_STYLE('',(#639));
#639 = FILL_AREA_STYLE_COLOUR('',#590);
#640 = STYLED_ITEM('color',(#641),#495);
#641 = PRESENTATION_STYLE_ASSIGNMENT((#642));
#642 = SURFACE_STYLE_USAGE(.BOTH.,#643);
#643 = SURFACE_SIDE_STYLE('',(#644));
#644 = SURFACE_STYLE_FILL_AREA(#645);
#645 = FILL_AREA_STYLE('',(#646));
#646 = FILL_AREA_STYLE_COLOUR('',#590);
#647 = STYLED_ITEM('color',(#648),#507);
#648 = PRESENTATION_STYLE_ASSIGNMENT((#649));
#649 = SURFACE_STYLE_USAGE(.BOTH.,#650);
#650 = SURFACE_SIDE_STYLE('',(#651));
#651 = SURFACE_STYLE_FILL_AREA(#652);
#652 = FILL_AREA_STYLE('',(#653));
#653 = FILL_AREA_STYLE_COLOUR('',#590);
ENDSEC;
END-ISO-10303-21;
