ISO-10303-21;
HEADER;
/* Texas_DSBGA-6_0.757x1.01mm_Layout2x3_P0.35mm.step 3D STEP model for use in ECAD systems
 * Copyright (C) 2024, KiCAD
 *
 * This work is licensed under the
 * [Creative Commons CC-BY-SA 4.0 License](https://creativecommons.org/licenses/by-sa/4.0/legalcode),
 * with the following exception:
 *
 * To the extent that the creation of electronic designs that use 'Licensed Material' can be
 * considered to be 'Adapted Material', then the copyright holder waives article 3 of the license
 * with respect to these designs and any generated files which use data provided as part of the
 * 'Licensed Material'.
 *
 * You are free to use the library data in your own projects without the obligation to share your
 * project files under this or any other license agreement. However, if you wish to distribute
 * these libraries, or parts thereof (including in modified form) as a collection then the exception
 * above does not apply. Please refer to
 * https://gitlab.com/kicad/libraries/kicad-packages3D/-/blob/master/LICENSE.md for further clarification
 * of the exception.
 *
 * Disclaimer of Warranties and Limitation of Liability.
 * These libraries are provided in the hope that they will be useful, but are provided without warranty of any kind, express or implied.
 * USE 3D CAD DATA AT YOUR OWN RISK
 * DO NOT RELY UPON ANY INFORMATION FOUND HERE WITHOUT INDEPENDENT VERIFICATION.
 */

FILE_DESCRIPTION(
/* description */ ('model of Texas_DSBGA-6_0.757x1.01mm_Layout2x3_P0.35mm'),
/* implementation_level */ '2;1');

FILE_NAME(
/* name */ 'Texas_DSBGA-6_0.757x1.01mm_Layout2x3_P0.35mm.step',
/* author */ ('KiCAD','kicad'),
/* organization */ ('OCCT'),
/* preprocessor_version */ '',
/* originating_system */ 'KiCAD',
/* authorisation */ '');

FILE_SCHEMA(('AUTOMOTIVE_DESIGN { 1 0 10303 214 1 1 1 1 }'));
ENDSEC;

DATA;
#1 = APPLICATION_PROTOCOL_DEFINITION('international standard',
'automotive_design',2000,#2);
#2 = APPLICATION_CONTEXT(
'core data for automotive mechanical design processes');
#3 = SHAPE_DEFINITION_REPRESENTATION(#4,#10);
#4 = PRODUCT_DEFINITION_SHAPE('','',#5);
#5 = PRODUCT_DEFINITION('design','',#6,#9);
#6 = PRODUCT_DEFINITION_FORMATION('','',#7);
#7 = PRODUCT('Texas_DSBGA-6_0.757x1.01mm_Layout2x3_P0.35mm',
'Texas_DSBGA-6_0.757x1.01mm_Layout2x3_P0.35mm','',(#8));
#8 = PRODUCT_CONTEXT('',#2,'mechanical');
#9 = PRODUCT_DEFINITION_CONTEXT('part definition',#2,'design');
#10 = ADVANCED_BREP_SHAPE_REPRESENTATION('',(#11,#15),#390);
#11 = AXIS2_PLACEMENT_3D('',#12,#13,#14);
#12 = CARTESIAN_POINT('',(0.,0.,0.));
#13 = DIRECTION('',(0.,0.,1.));
#14 = DIRECTION('',(1.,0.,-0.));
#15 = MANIFOLD_SOLID_BREP('',#16);
#16 = CLOSED_SHELL('',(#17,#57,#88,#123,#147,#230,#242,#267,#286,#305,
#324,#343,#362,#381));
#17 = ADVANCED_FACE('',(#18),#52,.F.);
#18 = FACE_BOUND('',#19,.F.);
#19 = EDGE_LOOP('',(#20,#30,#38,#46));
#20 = ORIENTED_EDGE('',*,*,#21,.F.);
#21 = EDGE_CURVE('',#22,#24,#26,.T.);
#22 = VERTEX_POINT('',#23);
#23 = CARTESIAN_POINT('',(-0.3785,0.505,0.155));
#24 = VERTEX_POINT('',#25);
#25 = CARTESIAN_POINT('',(-0.3785,0.505,0.375));
#26 = LINE('',#27,#28);
#27 = CARTESIAN_POINT('',(-0.3785,0.505,0.155));
#28 = VECTOR('',#29,1.);
#29 = DIRECTION('',(0.,0.,1.));
#30 = ORIENTED_EDGE('',*,*,#31,.T.);
#31 = EDGE_CURVE('',#22,#32,#34,.T.);
#32 = VERTEX_POINT('',#33);
#33 = CARTESIAN_POINT('',(0.3785,0.505,0.155));
#34 = LINE('',#35,#36);
#35 = CARTESIAN_POINT('',(-0.3785,0.505,0.155));
#36 = VECTOR('',#37,1.);
#37 = DIRECTION('',(1.,1.110223024625E-16,0.));
#38 = ORIENTED_EDGE('',*,*,#39,.T.);
#39 = EDGE_CURVE('',#32,#40,#42,.T.);
#40 = VERTEX_POINT('',#41);
#41 = CARTESIAN_POINT('',(0.3785,0.505,0.375));
#42 = LINE('',#43,#44);
#43 = CARTESIAN_POINT('',(0.3785,0.505,0.155));
#44 = VECTOR('',#45,1.);
#45 = DIRECTION('',(0.,0.,1.));
#46 = ORIENTED_EDGE('',*,*,#47,.F.);
#47 = EDGE_CURVE('',#24,#40,#48,.T.);
#48 = LINE('',#49,#50);
#49 = CARTESIAN_POINT('',(-0.3785,0.505,0.375));
#50 = VECTOR('',#51,1.);
#51 = DIRECTION('',(1.,1.110223024625E-16,0.));
#52 = PLANE('',#53);
#53 = AXIS2_PLACEMENT_3D('',#54,#55,#56);
#54 = CARTESIAN_POINT('',(-0.3785,0.505,0.155));
#55 = DIRECTION('',(1.110223024625E-16,-1.,0.));
#56 = DIRECTION('',(0.,0.,1.));
#57 = ADVANCED_FACE('',(#58),#83,.F.);
#58 = FACE_BOUND('',#59,.F.);
#59 = EDGE_LOOP('',(#60,#68,#69,#77));
#60 = ORIENTED_EDGE('',*,*,#61,.F.);
#61 = EDGE_CURVE('',#22,#62,#64,.T.);
#62 = VERTEX_POINT('',#63);
#63 = CARTESIAN_POINT('',(-0.3785,-0.505,0.155));
#64 = LINE('',#65,#66);
#65 = CARTESIAN_POINT('',(-0.3785,0.505,0.155));
#66 = VECTOR('',#67,1.);
#67 = DIRECTION('',(1.110223024625E-16,-1.,0.));
#68 = ORIENTED_EDGE('',*,*,#21,.T.);
#69 = ORIENTED_EDGE('',*,*,#70,.T.);
#70 = EDGE_CURVE('',#24,#71,#73,.T.);
#71 = VERTEX_POINT('',#72);
#72 = CARTESIAN_POINT('',(-0.3785,-0.505,0.375));
#73 = LINE('',#74,#75);
#74 = CARTESIAN_POINT('',(-0.3785,0.505,0.375));
#75 = VECTOR('',#76,1.);
#76 = DIRECTION('',(1.110223024625E-16,-1.,0.));
#77 = ORIENTED_EDGE('',*,*,#78,.F.);
#78 = EDGE_CURVE('',#62,#71,#79,.T.);
#79 = LINE('',#80,#81);
#80 = CARTESIAN_POINT('',(-0.3785,-0.505,0.155));
#81 = VECTOR('',#82,1.);
#82 = DIRECTION('',(0.,0.,1.));
#83 = PLANE('',#84);
#84 = AXIS2_PLACEMENT_3D('',#85,#86,#87);
#85 = CARTESIAN_POINT('',(-0.3785,0.505,0.155));
#86 = DIRECTION('',(1.,1.110223024625E-16,0.));
#87 = DIRECTION('',(0.,0.,1.));
#88 = ADVANCED_FACE('',(#89,#107),#118,.T.);
#89 = FACE_BOUND('',#90,.T.);
#90 = EDGE_LOOP('',(#91,#92,#93,#101));
#91 = ORIENTED_EDGE('',*,*,#47,.F.);
#92 = ORIENTED_EDGE('',*,*,#70,.T.);
#93 = ORIENTED_EDGE('',*,*,#94,.T.);
#94 = EDGE_CURVE('',#71,#95,#97,.T.);
#95 = VERTEX_POINT('',#96);
#96 = CARTESIAN_POINT('',(0.3785,-0.505,0.375));
#97 = LINE('',#98,#99);
#98 = CARTESIAN_POINT('',(-0.3785,-0.505,0.375));
#99 = VECTOR('',#100,1.);
#100 = DIRECTION('',(1.,1.110223024625E-16,0.));
#101 = ORIENTED_EDGE('',*,*,#102,.F.);
#102 = EDGE_CURVE('',#40,#95,#103,.T.);
#103 = LINE('',#104,#105);
#104 = CARTESIAN_POINT('',(0.3785,0.505,0.375));
#105 = VECTOR('',#106,1.);
#106 = DIRECTION('',(1.110223024625E-16,-1.,0.));
#107 = FACE_BOUND('',#108,.T.);
#108 = EDGE_LOOP('',(#109));
#109 = ORIENTED_EDGE('',*,*,#110,.T.);
#110 = EDGE_CURVE('',#111,#111,#113,.T.);
#111 = VERTEX_POINT('',#112);
#112 = CARTESIAN_POINT('',(-0.2185,0.27,0.375));
#113 = CIRCLE('',#114,7.5E-02);
#114 = AXIS2_PLACEMENT_3D('',#115,#116,#117);
#115 = CARTESIAN_POINT('',(-0.2185,0.345,0.375));
#116 = DIRECTION('',(0.,-0.,-1.));
#117 = DIRECTION('',(1.110223024625E-16,-1.,0.));
#118 = PLANE('',#119);
#119 = AXIS2_PLACEMENT_3D('',#120,#121,#122);
#120 = CARTESIAN_POINT('',(-0.3785,0.505,0.375));
#121 = DIRECTION('',(0.,0.,1.));
#122 = DIRECTION('',(1.110223024625E-16,-1.,0.));
#123 = ADVANCED_FACE('',(#124),#142,.T.);
#124 = FACE_BOUND('',#125,.T.);
#125 = EDGE_LOOP('',(#126,#134,#135,#136));
#126 = ORIENTED_EDGE('',*,*,#127,.F.);
#127 = EDGE_CURVE('',#32,#128,#130,.T.);
#128 = VERTEX_POINT('',#129);
#129 = CARTESIAN_POINT('',(0.3785,-0.505,0.155));
#130 = LINE('',#131,#132);
#131 = CARTESIAN_POINT('',(0.3785,0.505,0.155));
#132 = VECTOR('',#133,1.);
#133 = DIRECTION('',(1.110223024625E-16,-1.,0.));
#134 = ORIENTED_EDGE('',*,*,#39,.T.);
#135 = ORIENTED_EDGE('',*,*,#102,.T.);
#136 = ORIENTED_EDGE('',*,*,#137,.F.);
#137 = EDGE_CURVE('',#128,#95,#138,.T.);
#138 = LINE('',#139,#140);
#139 = CARTESIAN_POINT('',(0.3785,-0.505,0.155));
#140 = VECTOR('',#141,1.);
#141 = DIRECTION('',(0.,0.,1.));
#142 = PLANE('',#143);
#143 = AXIS2_PLACEMENT_3D('',#144,#145,#146);
#144 = CARTESIAN_POINT('',(0.3785,0.505,0.155));
#145 = DIRECTION('',(1.,1.110223024625E-16,0.));
#146 = DIRECTION('',(0.,0.,1.));
#147 = ADVANCED_FACE('',(#148,#159,#170,#181,#192,#203,#214),#225,.F.);
#148 = FACE_BOUND('',#149,.F.);
#149 = EDGE_LOOP('',(#150,#151,#152,#158));
#150 = ORIENTED_EDGE('',*,*,#31,.F.);
#151 = ORIENTED_EDGE('',*,*,#61,.T.);
#152 = ORIENTED_EDGE('',*,*,#153,.T.);
#153 = EDGE_CURVE('',#62,#128,#154,.T.);
#154 = LINE('',#155,#156);
#155 = CARTESIAN_POINT('',(-0.3785,-0.505,0.155));
#156 = VECTOR('',#157,1.);
#157 = DIRECTION('',(1.,1.110223024625E-16,0.));
#158 = ORIENTED_EDGE('',*,*,#127,.F.);
#159 = FACE_BOUND('',#160,.F.);
#160 = EDGE_LOOP('',(#161));
#161 = ORIENTED_EDGE('',*,*,#162,.F.);
#162 = EDGE_CURVE('',#163,#163,#165,.T.);
#163 = VERTEX_POINT('',#164);
#164 = CARTESIAN_POINT('',(-0.175,0.45239392377,0.155));
#165 = CIRCLE('',#166,0.10239392377);
#166 = AXIS2_PLACEMENT_3D('',#167,#168,#169);
#167 = CARTESIAN_POINT('',(-0.175,0.35,0.155));
#168 = DIRECTION('',(0.,-0.,1.));
#169 = DIRECTION('',(1.144237745222E-17,1.,0.));
#170 = FACE_BOUND('',#171,.F.);
#171 = EDGE_LOOP('',(#172));
#172 = ORIENTED_EDGE('',*,*,#173,.F.);
#173 = EDGE_CURVE('',#174,#174,#176,.T.);
#174 = VERTEX_POINT('',#175);
#175 = CARTESIAN_POINT('',(-0.175,0.10239392377,0.155));
#176 = CIRCLE('',#177,0.10239392377);
#177 = AXIS2_PLACEMENT_3D('',#178,#179,#180);
#178 = CARTESIAN_POINT('',(-0.175,2.002416054138E-18,0.155));
#179 = DIRECTION('',(0.,-0.,1.));
#180 = DIRECTION('',(1.144237745222E-17,1.,0.));
#181 = FACE_BOUND('',#182,.F.);
#182 = EDGE_LOOP('',(#183));
#183 = ORIENTED_EDGE('',*,*,#184,.F.);
#184 = EDGE_CURVE('',#185,#185,#187,.T.);
#185 = VERTEX_POINT('',#186);
#186 = CARTESIAN_POINT('',(-0.175,-0.24760607623,0.155));
#187 = CIRCLE('',#188,0.10239392377);
#188 = AXIS2_PLACEMENT_3D('',#189,#190,#191);
#189 = CARTESIAN_POINT('',(-0.175,-0.35,0.155));
#190 = DIRECTION('',(0.,-0.,1.));
#191 = DIRECTION('',(1.144237745222E-17,1.,0.));
#192 = FACE_BOUND('',#193,.F.);
#193 = EDGE_LOOP('',(#194));
#194 = ORIENTED_EDGE('',*,*,#195,.F.);
#195 = EDGE_CURVE('',#196,#196,#198,.T.);
#196 = VERTEX_POINT('',#197);
#197 = CARTESIAN_POINT('',(0.175,0.45239392377,0.155));
#198 = CIRCLE('',#199,0.10239392377);
#199 = AXIS2_PLACEMENT_3D('',#200,#201,#202);
#200 = CARTESIAN_POINT('',(0.175,0.35,0.155));
#201 = DIRECTION('',(0.,-0.,1.));
#202 = DIRECTION('',(1.144237745222E-17,1.,0.));
#203 = FACE_BOUND('',#204,.F.);
#204 = EDGE_LOOP('',(#205));
#205 = ORIENTED_EDGE('',*,*,#206,.F.);
#206 = EDGE_CURVE('',#207,#207,#209,.T.);
#207 = VERTEX_POINT('',#208);
#208 = CARTESIAN_POINT('',(0.175,0.10239392377,0.155));
#209 = CIRCLE('',#210,0.10239392377);
#210 = AXIS2_PLACEMENT_3D('',#211,#212,#213);
#211 = CARTESIAN_POINT('',(0.175,-2.002416054138E-18,0.155));
#212 = DIRECTION('',(0.,-0.,1.));
#213 = DIRECTION('',(1.144237745222E-17,1.,0.));
#214 = FACE_BOUND('',#215,.F.);
#215 = EDGE_LOOP('',(#216));
#216 = ORIENTED_EDGE('',*,*,#217,.F.);
#217 = EDGE_CURVE('',#218,#218,#220,.T.);
#218 = VERTEX_POINT('',#219);
#219 = CARTESIAN_POINT('',(0.175,-0.24760607623,0.155));
#220 = CIRCLE('',#221,0.10239392377);
#221 = AXIS2_PLACEMENT_3D('',#222,#223,#224);
#222 = CARTESIAN_POINT('',(0.175,-0.35,0.155));
#223 = DIRECTION('',(0.,-0.,1.));
#224 = DIRECTION('',(1.144237745222E-17,1.,0.));
#225 = PLANE('',#226);
#226 = AXIS2_PLACEMENT_3D('',#227,#228,#229);
#227 = CARTESIAN_POINT('',(-0.3785,0.505,0.155));
#228 = DIRECTION('',(0.,0.,1.));
#229 = DIRECTION('',(1.110223024625E-16,-1.,0.));
#230 = ADVANCED_FACE('',(#231),#237,.T.);
#231 = FACE_BOUND('',#232,.T.);
#232 = EDGE_LOOP('',(#233,#234,#235,#236));
#233 = ORIENTED_EDGE('',*,*,#78,.F.);
#234 = ORIENTED_EDGE('',*,*,#153,.T.);
#235 = ORIENTED_EDGE('',*,*,#137,.T.);
#236 = ORIENTED_EDGE('',*,*,#94,.F.);
#237 = PLANE('',#238);
#238 = AXIS2_PLACEMENT_3D('',#239,#240,#241);
#239 = CARTESIAN_POINT('',(-0.3785,-0.505,0.155));
#240 = DIRECTION('',(1.110223024625E-16,-1.,0.));
#241 = DIRECTION('',(0.,0.,1.));
#242 = ADVANCED_FACE('',(#243),#262,.T.);
#243 = FACE_BOUND('',#244,.T.);
#244 = EDGE_LOOP('',(#245,#253,#260,#261));
#245 = ORIENTED_EDGE('',*,*,#246,.F.);
#246 = EDGE_CURVE('',#247,#111,#249,.T.);
#247 = VERTEX_POINT('',#248);
#248 = CARTESIAN_POINT('',(-0.2185,0.27,0.377));
#249 = LINE('',#250,#251);
#250 = CARTESIAN_POINT('',(-0.2185,0.27,0.377));
#251 = VECTOR('',#252,1.);
#252 = DIRECTION('',(0.,0.,-1.));
#253 = ORIENTED_EDGE('',*,*,#254,.T.);
#254 = EDGE_CURVE('',#247,#247,#255,.T.);
#255 = CIRCLE('',#256,7.5E-02);
#256 = AXIS2_PLACEMENT_3D('',#257,#258,#259);
#257 = CARTESIAN_POINT('',(-0.2185,0.345,0.377));
#258 = DIRECTION('',(0.,-0.,-1.));
#259 = DIRECTION('',(1.110223024625E-16,-1.,0.));
#260 = ORIENTED_EDGE('',*,*,#246,.T.);
#261 = ORIENTED_EDGE('',*,*,#110,.F.);
#262 = CYLINDRICAL_SURFACE('',#263,7.5E-02);
#263 = AXIS2_PLACEMENT_3D('',#264,#265,#266);
#264 = CARTESIAN_POINT('',(-0.2185,0.345,0.377));
#265 = DIRECTION('',(0.,0.,-1.));
#266 = DIRECTION('',(1.110223024625E-16,-1.,0.));
#267 = ADVANCED_FACE('',(#268),#281,.T.);
#268 = FACE_BOUND('',#269,.T.);
#269 = EDGE_LOOP('',(#270,#271,#280));
#270 = ORIENTED_EDGE('',*,*,#162,.F.);
#271 = ORIENTED_EDGE('',*,*,#272,.F.);
#272 = EDGE_CURVE('',#273,#163,#275,.T.);
#273 = VERTEX_POINT('',#274);
#274 = CARTESIAN_POINT('',(-0.175,0.35,-5.375E-03));
#275 = CIRCLE('',#276,0.112875);
#276 = AXIS2_PLACEMENT_3D('',#277,#278,#279);
#277 = CARTESIAN_POINT('',(-0.175,0.35,0.1075));
#278 = DIRECTION('',(1.,-2.563717372817E-16,0.));
#279 = DIRECTION('',(2.563717372817E-16,1.,0.));
#280 = ORIENTED_EDGE('',*,*,#272,.T.);
#281 = SPHERICAL_SURFACE('',#282,0.112875);
#282 = AXIS2_PLACEMENT_3D('',#283,#284,#285);
#283 = CARTESIAN_POINT('',(-0.175,0.35,0.1075));
#284 = DIRECTION('',(0.,0.,1.));
#285 = DIRECTION('',(1.144237745222E-17,1.,0.));
#286 = ADVANCED_FACE('',(#287),#300,.T.);
#287 = FACE_BOUND('',#288,.T.);
#288 = EDGE_LOOP('',(#289,#290,#299));
#289 = ORIENTED_EDGE('',*,*,#173,.F.);
#290 = ORIENTED_EDGE('',*,*,#291,.F.);
#291 = EDGE_CURVE('',#292,#174,#294,.T.);
#292 = VERTEX_POINT('',#293);
#293 = CARTESIAN_POINT('',(-0.175,8.914016426826E-18,-5.375E-03));
#294 = CIRCLE('',#295,0.112875);
#295 = AXIS2_PLACEMENT_3D('',#296,#297,#298);
#296 = CARTESIAN_POINT('',(-0.175,2.002416054138E-18,0.1075));
#297 = DIRECTION('',(1.,-2.563717372817E-16,0.));
#298 = DIRECTION('',(2.563717372817E-16,1.,0.));
#299 = ORIENTED_EDGE('',*,*,#291,.T.);
#300 = SPHERICAL_SURFACE('',#301,0.112875);
#301 = AXIS2_PLACEMENT_3D('',#302,#303,#304);
#302 = CARTESIAN_POINT('',(-0.175,2.002416054138E-18,0.1075));
#303 = DIRECTION('',(0.,0.,1.));
#304 = DIRECTION('',(1.144237745222E-17,1.,0.));
#305 = ADVANCED_FACE('',(#306),#319,.T.);
#306 = FACE_BOUND('',#307,.T.);
#307 = EDGE_LOOP('',(#308,#309,#318));
#308 = ORIENTED_EDGE('',*,*,#184,.F.);
#309 = ORIENTED_EDGE('',*,*,#310,.F.);
#310 = EDGE_CURVE('',#311,#185,#313,.T.);
#311 = VERTEX_POINT('',#312);
#312 = CARTESIAN_POINT('',(-0.175,-0.35,-5.375E-03));
#313 = CIRCLE('',#314,0.112875);
#314 = AXIS2_PLACEMENT_3D('',#315,#316,#317);
#315 = CARTESIAN_POINT('',(-0.175,-0.35,0.1075));
#316 = DIRECTION('',(1.,-2.563717372817E-16,0.));
#317 = DIRECTION('',(2.563717372817E-16,1.,0.));
#318 = ORIENTED_EDGE('',*,*,#310,.T.);
#319 = SPHERICAL_SURFACE('',#320,0.112875);
#320 = AXIS2_PLACEMENT_3D('',#321,#322,#323);
#321 = CARTESIAN_POINT('',(-0.175,-0.35,0.1075));
#322 = DIRECTION('',(0.,0.,1.));
#323 = DIRECTION('',(1.144237745222E-17,1.,0.));
#324 = ADVANCED_FACE('',(#325),#338,.T.);
#325 = FACE_BOUND('',#326,.T.);
#326 = EDGE_LOOP('',(#327,#328,#337));
#327 = ORIENTED_EDGE('',*,*,#195,.F.);
#328 = ORIENTED_EDGE('',*,*,#329,.F.);
#329 = EDGE_CURVE('',#330,#196,#332,.T.);
#330 = VERTEX_POINT('',#331);
#331 = CARTESIAN_POINT('',(0.175,0.35,-5.375E-03));
#332 = CIRCLE('',#333,0.112875);
#333 = AXIS2_PLACEMENT_3D('',#334,#335,#336);
#334 = CARTESIAN_POINT('',(0.175,0.35,0.1075));
#335 = DIRECTION('',(1.,-2.563717372817E-16,0.));
#336 = DIRECTION('',(2.563717372817E-16,1.,0.));
#337 = ORIENTED_EDGE('',*,*,#329,.T.);
#338 = SPHERICAL_SURFACE('',#339,0.112875);
#339 = AXIS2_PLACEMENT_3D('',#340,#341,#342);
#340 = CARTESIAN_POINT('',(0.175,0.35,0.1075));
#341 = DIRECTION('',(0.,0.,1.));
#342 = DIRECTION('',(1.144237745222E-17,1.,0.));
#343 = ADVANCED_FACE('',(#344),#357,.T.);
#344 = FACE_BOUND('',#345,.T.);
#345 = EDGE_LOOP('',(#346,#347,#356));
#346 = ORIENTED_EDGE('',*,*,#206,.F.);
#347 = ORIENTED_EDGE('',*,*,#348,.F.);
#348 = EDGE_CURVE('',#349,#207,#351,.T.);
#349 = VERTEX_POINT('',#350);
#350 = CARTESIAN_POINT('',(0.175,4.909184318549E-18,-5.375E-03));
#351 = CIRCLE('',#352,0.112875);
#352 = AXIS2_PLACEMENT_3D('',#353,#354,#355);
#353 = CARTESIAN_POINT('',(0.175,-2.002416054138E-18,0.1075));
#354 = DIRECTION('',(1.,-2.563717372817E-16,0.));
#355 = DIRECTION('',(2.563717372817E-16,1.,0.));
#356 = ORIENTED_EDGE('',*,*,#348,.T.);
#357 = SPHERICAL_SURFACE('',#358,0.112875);
#358 = AXIS2_PLACEMENT_3D('',#359,#360,#361);
#359 = CARTESIAN_POINT('',(0.175,-2.002416054138E-18,0.1075));
#360 = DIRECTION('',(0.,0.,1.));
#361 = DIRECTION('',(1.144237745222E-17,1.,0.));
#362 = ADVANCED_FACE('',(#363),#376,.T.);
#363 = FACE_BOUND('',#364,.T.);
#364 = EDGE_LOOP('',(#365,#366,#375));
#365 = ORIENTED_EDGE('',*,*,#217,.F.);
#366 = ORIENTED_EDGE('',*,*,#367,.F.);
#367 = EDGE_CURVE('',#368,#218,#370,.T.);
#368 = VERTEX_POINT('',#369);
#369 = CARTESIAN_POINT('',(0.175,-0.35,-5.375E-03));
#370 = CIRCLE('',#371,0.112875);
#371 = AXIS2_PLACEMENT_3D('',#372,#373,#374);
#372 = CARTESIAN_POINT('',(0.175,-0.35,0.1075));
#373 = DIRECTION('',(1.,-2.563717372817E-16,0.));
#374 = DIRECTION('',(2.563717372817E-16,1.,0.));
#375 = ORIENTED_EDGE('',*,*,#367,.T.);
#376 = SPHERICAL_SURFACE('',#377,0.112875);
#377 = AXIS2_PLACEMENT_3D('',#378,#379,#380);
#378 = CARTESIAN_POINT('',(0.175,-0.35,0.1075));
#379 = DIRECTION('',(0.,0.,1.));
#380 = DIRECTION('',(1.144237745222E-17,1.,0.));
#381 = ADVANCED_FACE('',(#382),#385,.F.);
#382 = FACE_BOUND('',#383,.T.);
#383 = EDGE_LOOP('',(#384));
#384 = ORIENTED_EDGE('',*,*,#254,.F.);
#385 = PLANE('',#386);
#386 = AXIS2_PLACEMENT_3D('',#387,#388,#389);
#387 = CARTESIAN_POINT('',(-0.2185,0.345,0.377));
#388 = DIRECTION('',(0.,0.,-1.));
#389 = DIRECTION('',(1.110223024625E-16,-1.,0.));
#390 = ( GEOMETRIC_REPRESENTATION_CONTEXT(3)
GLOBAL_UNCERTAINTY_ASSIGNED_CONTEXT((#394)) GLOBAL_UNIT_ASSIGNED_CONTEXT
((#391,#392,#393)) REPRESENTATION_CONTEXT('Context #1',
'3D Context with UNIT and UNCERTAINTY') );
#391 = ( LENGTH_UNIT() NAMED_UNIT(*) SI_UNIT(.MILLI.,.METRE.) );
#392 = ( NAMED_UNIT(*) PLANE_ANGLE_UNIT() SI_UNIT($,.RADIAN.) );
#393 = ( NAMED_UNIT(*) SI_UNIT($,.STERADIAN.) SOLID_ANGLE_UNIT() );
#394 = UNCERTAINTY_MEASURE_WITH_UNIT(LENGTH_MEASURE(1.E-07),#391,
'distance_accuracy_value','confusion accuracy');
#395 = PRODUCT_RELATED_PRODUCT_CATEGORY('part',$,(#7));
#396 = MECHANICAL_DESIGN_GEOMETRIC_PRESENTATION_REPRESENTATION('',(#397,
#407,#416,#425,#434,#443,#452,#462,#472,#481,#490,#499,#508,#517),
#390);
#397 = STYLED_ITEM('color',(#398),#17);
#398 = PRESENTATION_STYLE_ASSIGNMENT((#399,#405));
#399 = SURFACE_STYLE_USAGE(.BOTH.,#400);
#400 = SURFACE_SIDE_STYLE('',(#401));
#401 = SURFACE_STYLE_FILL_AREA(#402);
#402 = FILL_AREA_STYLE('',(#403));
#403 = FILL_AREA_STYLE_COLOUR('',#404);
#404 = COLOUR_RGB('',0.147999998088,0.145000001626,0.145000001626);
#405 = CURVE_STYLE('',#406,POSITIVE_LENGTH_MEASURE(0.1),#404);
#406 = DRAUGHTING_PRE_DEFINED_CURVE_FONT('continuous');
#407 = STYLED_ITEM('color',(#408),#57);
#408 = PRESENTATION_STYLE_ASSIGNMENT((#409,#414));
#409 = SURFACE_STYLE_USAGE(.BOTH.,#410);
#410 = SURFACE_SIDE_STYLE('',(#411));
#411 = SURFACE_STYLE_FILL_AREA(#412);
#412 = FILL_AREA_STYLE('',(#413));
#413 = FILL_AREA_STYLE_COLOUR('',#404);
#414 = CURVE_STYLE('',#415,POSITIVE_LENGTH_MEASURE(0.1),#404);
#415 = DRAUGHTING_PRE_DEFINED_CURVE_FONT('continuous');
#416 = STYLED_ITEM('color',(#417),#88);
#417 = PRESENTATION_STYLE_ASSIGNMENT((#418,#423));
#418 = SURFACE_STYLE_USAGE(.BOTH.,#419);
#419 = SURFACE_SIDE_STYLE('',(#420));
#420 = SURFACE_STYLE_FILL_AREA(#421);
#421 = FILL_AREA_STYLE('',(#422));
#422 = FILL_AREA_STYLE_COLOUR('',#404);
#423 = CURVE_STYLE('',#424,POSITIVE_LENGTH_MEASURE(0.1),#404);
#424 = DRAUGHTING_PRE_DEFINED_CURVE_FONT('continuous');
#425 = STYLED_ITEM('color',(#426),#123);
#426 = PRESENTATION_STYLE_ASSIGNMENT((#427,#432));
#427 = SURFACE_STYLE_USAGE(.BOTH.,#428);
#428 = SURFACE_SIDE_STYLE('',(#429));
#429 = SURFACE_STYLE_FILL_AREA(#430);
#430 = FILL_AREA_STYLE('',(#431));
#431 = FILL_AREA_STYLE_COLOUR('',#404);
#432 = CURVE_STYLE('',#433,POSITIVE_LENGTH_MEASURE(0.1),#404);
#433 = DRAUGHTING_PRE_DEFINED_CURVE_FONT('continuous');
#434 = STYLED_ITEM('color',(#435),#147);
#435 = PRESENTATION_STYLE_ASSIGNMENT((#436,#441));
#436 = SURFACE_STYLE_USAGE(.BOTH.,#437);
#437 = SURFACE_SIDE_STYLE('',(#438));
#438 = SURFACE_STYLE_FILL_AREA(#439);
#439 = FILL_AREA_STYLE('',(#440));
#440 = FILL_AREA_STYLE_COLOUR('',#404);
#441 = CURVE_STYLE('',#442,POSITIVE_LENGTH_MEASURE(0.1),#404);
#442 = DRAUGHTING_PRE_DEFINED_CURVE_FONT('continuous');
#443 = STYLED_ITEM('color',(#444),#230);
#444 = PRESENTATION_STYLE_ASSIGNMENT((#445,#450));
#445 = SURFACE_STYLE_USAGE(.BOTH.,#446);
#446 = SURFACE_SIDE_STYLE('',(#447));
#447 = SURFACE_STYLE_FILL_AREA(#448);
#448 = FILL_AREA_STYLE('',(#449));
#449 = FILL_AREA_STYLE_COLOUR('',#404);
#450 = CURVE_STYLE('',#451,POSITIVE_LENGTH_MEASURE(0.1),#404);
#451 = DRAUGHTING_PRE_DEFINED_CURVE_FONT('continuous');
#452 = STYLED_ITEM('color',(#453),#242);
#453 = PRESENTATION_STYLE_ASSIGNMENT((#454,#460));
#454 = SURFACE_STYLE_USAGE(.BOTH.,#455);
#455 = SURFACE_SIDE_STYLE('',(#456));
#456 = SURFACE_STYLE_FILL_AREA(#457);
#457 = FILL_AREA_STYLE('',(#458));
#458 = FILL_AREA_STYLE_COLOUR('',#459);
#459 = COLOUR_RGB('',0.690999998585,0.664000007176,0.597999987832);
#460 = CURVE_STYLE('',#461,POSITIVE_LENGTH_MEASURE(0.1),#459);
#461 = DRAUGHTING_PRE_DEFINED_CURVE_FONT('continuous');
#462 = STYLED_ITEM('color',(#463),#267);
#463 = PRESENTATION_STYLE_ASSIGNMENT((#464,#470));
#464 = SURFACE_STYLE_USAGE(.BOTH.,#465);
#465 = SURFACE_SIDE_STYLE('',(#466));
#466 = SURFACE_STYLE_FILL_AREA(#467);
#467 = FILL_AREA_STYLE('',(#468));
#468 = FILL_AREA_STYLE_COLOUR('',#469);
#469 = COLOUR_RGB('',0.823999987314,0.819999987296,0.781000009244);
#470 = CURVE_STYLE('',#471,POSITIVE_LENGTH_MEASURE(0.1),#469);
#471 = DRAUGHTING_PRE_DEFINED_CURVE_FONT('continuous');
#472 = STYLED_ITEM('color',(#473),#286);
#473 = PRESENTATION_STYLE_ASSIGNMENT((#474,#479));
#474 = SURFACE_STYLE_USAGE(.BOTH.,#475);
#475 = SURFACE_SIDE_STYLE('',(#476));
#476 = SURFACE_STYLE_FILL_AREA(#477);
#477 = FILL_AREA_STYLE('',(#478));
#478 = FILL_AREA_STYLE_COLOUR('',#469);
#479 = CURVE_STYLE('',#480,POSITIVE_LENGTH_MEASURE(0.1),#469);
#480 = DRAUGHTING_PRE_DEFINED_CURVE_FONT('continuous');
#481 = STYLED_ITEM('color',(#482),#305);
#482 = PRESENTATION_STYLE_ASSIGNMENT((#483,#488));
#483 = SURFACE_STYLE_USAGE(.BOTH.,#484);
#484 = SURFACE_SIDE_STYLE('',(#485));
#485 = SURFACE_STYLE_FILL_AREA(#486);
#486 = FILL_AREA_STYLE('',(#487));
#487 = FILL_AREA_STYLE_COLOUR('',#469);
#488 = CURVE_STYLE('',#489,POSITIVE_LENGTH_MEASURE(0.1),#469);
#489 = DRAUGHTING_PRE_DEFINED_CURVE_FONT('continuous');
#490 = STYLED_ITEM('color',(#491),#324);
#491 = PRESENTATION_STYLE_ASSIGNMENT((#492,#497));
#492 = SURFACE_STYLE_USAGE(.BOTH.,#493);
#493 = SURFACE_SIDE_STYLE('',(#494));
#494 = SURFACE_STYLE_FILL_AREA(#495);
#495 = FILL_AREA_STYLE('',(#496));
#496 = FILL_AREA_STYLE_COLOUR('',#469);
#497 = CURVE_STYLE('',#498,POSITIVE_LENGTH_MEASURE(0.1),#469);
#498 = DRAUGHTING_PRE_DEFINED_CURVE_FONT('continuous');
#499 = STYLED_ITEM('color',(#500),#343);
#500 = PRESENTATION_STYLE_ASSIGNMENT((#501,#506));
#501 = SURFACE_STYLE_USAGE(.BOTH.,#502);
#502 = SURFACE_SIDE_STYLE('',(#503));
#503 = SURFACE_STYLE_FILL_AREA(#504);
#504 = FILL_AREA_STYLE('',(#505));
#505 = FILL_AREA_STYLE_COLOUR('',#469);
#506 = CURVE_STYLE('',#507,POSITIVE_LENGTH_MEASURE(0.1),#469);
#507 = DRAUGHTING_PRE_DEFINED_CURVE_FONT('continuous');
#508 = STYLED_ITEM('color',(#509),#362);
#509 = PRESENTATION_STYLE_ASSIGNMENT((#510,#515));
#510 = SURFACE_STYLE_USAGE(.BOTH.,#511);
#511 = SURFACE_SIDE_STYLE('',(#512));
#512 = SURFACE_STYLE_FILL_AREA(#513);
#513 = FILL_AREA_STYLE('',(#514));
#514 = FILL_AREA_STYLE_COLOUR('',#469);
#515 = CURVE_STYLE('',#516,POSITIVE_LENGTH_MEASURE(0.1),#469);
#516 = DRAUGHTING_PRE_DEFINED_CURVE_FONT('continuous');
#517 = STYLED_ITEM('color',(#518),#381);
#518 = PRESENTATION_STYLE_ASSIGNMENT((#519,#524));
#519 = SURFACE_STYLE_USAGE(.BOTH.,#520);
#520 = SURFACE_SIDE_STYLE('',(#521));
#521 = SURFACE_STYLE_FILL_AREA(#522);
#522 = FILL_AREA_STYLE('',(#523));
#523 = FILL_AREA_STYLE_COLOUR('',#459);
#524 = CURVE_STYLE('',#525,POSITIVE_LENGTH_MEASURE(0.1),#459);
#525 = DRAUGHTING_PRE_DEFINED_CURVE_FONT('continuous');
ENDSEC;
END-ISO-10303-21;
